Автор Тема: Это вообще реальная скорость?  (Прочитано 3003 раз)

0 Пользователей и 1 Гость просматривают эту тему.

Оффлайн Макц Автор темы

  • Частый посетитель
  • **
  • Сообщений: 214
  • Репутация: +8/-3
  • ум-Ца-ум-Ца!
Это вообще реальная скорость?
« : Января 20, 2007, 14:19:37 »
Tenacious D - Master Exploder, начальное соло слушаю и мне кажеться что это вообще не реально сыграть, более того я по табам даже не успеваю различить что и как играется, только чуть - чуть улавливаю.
Ребят, скажите какие табы правильнее, буду на минимуме скорости учить...

ссылка на mp3: http://webfile.ru/1289723
ссылка на 1ые табы: http://911tabs.com/link/?3384519
ссылка на 2ые табы: http://911tabs.com/link/?3384518

Первые вроде полегче но хз, вообщем нид хелп!

Оффлайн Darklight

  • Меценат
  • *****
  • Сообщений: 1706
  • Репутация: +836/-200
  • Вячеслав
Re: Это вообще реальная скорость?
« Ответ #1 : Января 20, 2007, 15:20:27 »
ээээ... извени табы не смотрел но... чо там успевать? там от силы 150 16ми

Оффлайн Diezel

  • Меценат
  • *****
  • Сообщений: 4122
  • Репутация: +281/-29
  • Devils...
Re: Это вообще реальная скорость?
« Ответ #2 : Января 20, 2007, 15:27:15 »
Это разве скорость?Послушай драгонфорс вот там скорость такое ощение что они за песню извлекают 2000000 нот.

Оффлайн Макц Автор темы

  • Частый посетитель
  • **
  • Сообщений: 214
  • Репутация: +8/-3
  • ум-Ца-ум-Ца!
Re: Это вообще реальная скорость?
« Ответ #3 : Января 20, 2007, 15:54:59 »
я играю 5 месяцев, поэтому для меня это огромная скорость + еще во второй версии табов там много хаммеров и пулофов. вот на них я скорость вооще всю теряю, у меня пш быстрее получается... ;(
Не надо критиковать, вопрос как раз в том какая версия правильнее, потому как вторая ну вообще даже отдаленно не напоминает оригинал в моем исполнении...
---
Повтояюсь: Вопрос не в том какая группа круче, быстрее и лучше звучит, и даже не в том, что легко, а что сложно. Вопрос какая из вериси подходит к оригиналу!
« Последнее редактирование: Января 20, 2007, 15:58:05 от Макц »

Оффлайн Darklight

  • Меценат
  • *****
  • Сообщений: 1706
  • Репутация: +836/-200
  • Вячеслав
Re: Это вообще реальная скорость?
« Ответ #4 : Января 20, 2007, 16:31:48 »
второй вариант не смотрел... первый... похоже... тока там полюбому играй пулоф с 15 на 12 лад

Оффлайн Darklight

  • Меценат
  • *****
  • Сообщений: 1706
  • Репутация: +836/-200
  • Вячеслав
Re: Это вообще реальная скорость?
« Ответ #5 : Января 20, 2007, 16:32:45 »
глянул второй... помоему это продолжение первого)) играть лень проверять..

Оффлайн Макц Автор темы

  • Частый посетитель
  • **
  • Сообщений: 214
  • Репутация: +8/-3
  • ум-Ца-ум-Ца!
Re: Это вообще реальная скорость?
« Ответ #6 : Января 20, 2007, 16:44:42 »
вот второй вариант меня пугает сильно как раз, потому что там тыща пулофов этих с непонятным бендом на 3ей струне...
вот этот кусок 14bu(bd)p12 значит что нужно бенд поднять, опустить и сразуже пулоф на 12? Я все правильно понял?

E|--------12------------12------------------------------12-----------------|
B|-----------15p12-15b-----15p12----------------------------15p12--15p12---|
G|----14b------------------------14bu(bd)p12----12--14b--------------------|
D|-------------------------------------------14----------------------------|
A|-------------------------------------------------------------------------|
E|-------------------------------------------------------------------------|

e|-----12-------------12-------15h17p15----15h17p15---15h17p15---15h17p15----|
B|--------15p12--15b--------------------17---------17---------17---------17--|
G|-14b-----------------------------------------------------------------------|
D|---------------------------------------------------------------------------|
A|---------------------------------------------------------------------------|
E|---------------------------------------------------------------------------|

p.s. Спасибо! ;)

Оффлайн Диманыч

  • Эксперт
  • *****
  • Сообщений: 1772
  • Репутация: +1676/-441
  • Гигант Мысли
Re: Это вообще реальная скорость?
« Ответ #7 : Января 20, 2007, 16:51:42 »
120 темп 32ми-это максимум, что нужно для жизни.

Оффлайн Diezel

  • Меценат
  • *****
  • Сообщений: 4122
  • Репутация: +281/-29
  • Devils...
Re: Это вообще реальная скорость?
« Ответ #8 : Января 20, 2007, 18:41:47 »
Меня просто удивиоа о том что реальная ли это скорость.
вот второй вариант меня пугает сильно как раз, потому что там тыща пулофов этих с непонятным бендом на 3ей струне...
вот этот кусок 14bu(bd)p12 значит что нужно бенд поднять, опустить и сразуже пулоф на 12? Я все правильно понял?

E|--------12------------12------------------------------12-----------------|
B|-----------15p12-15b-----15p12----------------------------15p12--15p12---|
G|----14b------------------------14bu(bd)p12----12--14b--------------------|
D|-------------------------------------------14----------------------------|
A|-------------------------------------------------------------------------|
E|-------------------------------------------------------------------------|

e|-----12-------------12-------15h17p15----15h17p15---15h17p15---15h17p15----|
B|--------15p12--15b--------------------17---------17---------17---------17--|
G|-14b-----------------------------------------------------------------------|
D|---------------------------------------------------------------------------|
A|---------------------------------------------------------------------------|
E|---------------------------------------------------------------------------|

p.s. Спасибо! ;)

нет это значит что во время бенда надо сделать пулоф

Оффлайн Макц Автор темы

  • Частый посетитель
  • **
  • Сообщений: 214
  • Репутация: +8/-3
  • ум-Ца-ум-Ца!
Re: Это вообще реальная скорость?
« Ответ #9 : Января 20, 2007, 22:14:12 »
Спасибо!

Оффлайн dima547

  • Эксперт
  • *****
  • Сообщений: 1156
  • Репутация: +375/-182
Re: Это вообще реальная скорость?
« Ответ #10 : Января 21, 2007, 02:15:07 »
не согласен с дизелем

вот этот кусок 14bu(bd)p12 значит что нужно бенд поднять, опустить и сразуже пулоф на 12? Я все правильно понял?

да,

bu = bend up
bd = bend down
p = pull

т.е. все говоришь правильно (по логике)

Оффлайн Bluetooth

  • Эксперт
  • *****
  • Сообщений: 2475
  • Репутация: +620/-366
  • Стратоман
Re: Это вообще реальная скорость?
« Ответ #11 : Января 21, 2007, 03:02:08 »
Вопрос какая из вериси подходит к оригиналу!
может не стоит играть то что кажется для тебя "нереально быстрым"? :)

Оффлайн Макц Автор темы

  • Частый посетитель
  • **
  • Сообщений: 214
  • Репутация: +8/-3
  • ум-Ца-ум-Ца!
Re: Это вообще реальная скорость?
« Ответ #12 : Января 21, 2007, 12:16:20 »
может не стоит играть то что кажется для тебя "нереально быстрым"? :)
Хм... Да ты прав. Но так хочется, хотя бы медленно... И скорость так развивать, если не впиливать как псих. Да? Нет?

Оффлайн Чип

  • Ветеран форума
  • ******
  • Сообщений: 3267
  • Репутация: +1910/-67
  • ... вот это титьки.....
Re: Это вообще реальная скорость?
« Ответ #13 : Января 21, 2007, 16:16:52 »
мальмстин например медленно не звучит вообще. это относится и к большинству шреддерских вещей.
играй то, что попроще, но в нормальную скорость, не думая "сейчас сыграю потихоньку, а потом как карта ляжет"
разучивать конечно надо в медленном темпе, но ИМХО! играть надо на пределе возможностей.
как говорят бодибилдеры "no pain - no gain" ;)

Оффлайн Макц Автор темы

  • Частый посетитель
  • **
  • Сообщений: 214
  • Репутация: +8/-3
  • ум-Ца-ум-Ца!
Re: Это вообще реальная скорость?
« Ответ #14 : Января 21, 2007, 16:46:32 »
мальмстин например медленно не звучит вообще. это относится и к большинству шреддерских вещей.
играй то, что попроще, но в нормальную скорость, не думая "сейчас сыграю потихоньку, а потом как карта ляжет"
разучивать конечно надо в медленном темпе, но ИМХО! играть надо на пределе возможностей.
как говорят бодибилдеры "no pain - no gain" ;)
Понял, вопользуюсь советом, спасибо.
p.s. Ты своей фразой про пэйн игйен напомнил мне еще одну:
Nobody is perfect. Iam nobody! ;))))