Автор Тема: Как сыграть?  (Прочитано 918 раз)

0 Пользователей и 1 Гость просматривают эту тему.

Оффлайн Борменталь Автор темы

  • Эксперт
  • *****
  • Сообщений: 1369
  • Репутация: +16/-8
  • Зарегистрированный
    • http://
Как сыграть?
« : Июля 23, 2003, 19:02:06 »
Песня Цоя "Стук". Там соло элементарненькое, которое заканчивается гаммой, быстренькой такой. По-моему просто вверх-вниз медиатором это не отбарабанить. Где собака порылась? Мож де H.O/P.O подключить? Помогите ламеру. Да, снимал сам, так что если что неверно - исправте.


    Em          G          A    
e-----7-|-15------15-|-14------|
h-------|----13------|-----12--|
g-------|------------|---------|
d-5-----|------------|---------|
a---7---|------------|---------|
e-------|------------|---------|


    E      G     A
--------|------|-----------------------------------------------|
--------|------|------------------------------9-11-12-11-13-15-|
--12\0--|------|-------------------9-10-12-10------------------|
--------|-9109-|--------9-10-12-10-----------------------------|
--------|------|--12-10----------------------------------------|
--------|------|-----------------------------------------------|


Оффлайн perez

  • Новичок
  • *
  • Сообщений: 4
  • Репутация: +0/-0
  • Зарегистрированный
    • http://
Как сыграть?
« Ответ #1 : Июля 23, 2003, 20:37:02 »
хм.Соло-то я не слышал...поразбирал твой таб...последний пассаж играю переменным штрихом-для меня это самый оптимальный вариант в соотношении органичность/скорость(по крайней мере для этого пассажа),только последнюю ноту я на первую струну перенёс.

Оффлайн Борменталь Автор темы

  • Эксперт
  • *****
  • Сообщений: 1369
  • Репутация: +16/-8
  • Зарегистрированный
    • http://
Как сыграть?
« Ответ #2 : Июля 23, 2003, 21:12:07 »
Ту важно именно послушать. Таки переменным, а с пробдемами - пилите, Шура, пилите или всё таки...

Оффлайн Refery

  • Новичок
  • *
  • Сообщений: 16
  • Репутация: +0/-0
  • Зарегистрированный
    • http://
Как сыграть?
« Ответ #3 : Июля 29, 2003, 02:15:43 »
Попробуй поменять апликатуру. Переменным играть гораздо удобнее.