Автор Тема: Легато Шона Лэйна  (Прочитано 982 раз)

0 Пользователей и 1 Гость просматривают эту тему.

Оффлайн Nuno Автор темы

  • Опытный
  • ****
  • Сообщений: 758
  • Репутация: +16/-6
  • Зарегистрированный
    • http://
Легато Шона Лэйна
« : Февраля 22, 2005, 01:27:41 »
Вопрос по легатной технике Шона Лэйна. Его «изюминкой» является использование хамеров и пулов «из ниоткуда». В своей 1-й  видеошколе «Power Licks» он демонстрирует ряд фраз, в которых «хамеры используются изолированно от пулов, пулы – изолированно от хамеров». В нисходящем пассаже он играет 5 нот хамером, а 6-ю ноту – медиатором. Медиатор приходится на указательный палец левой руки.  

 4/4
  Gtr I
   |------6------|  |------6------| |----6----| |----6----| |----6----|
   S  S  S  S  S S  S  S  S  S  S S S S S S S S S S S S S S S S S S S S
|-h7-h9-h5-h7----5---------------------------------------------------------||
|-------------      h9---h7-h9-h5-h7----5-----------------------------------||
|------------------------------             h9---7-9-5-7---5------------------||
|-----------------------------------------                 --9---7-9-5-7---5----||
|----------------------------------------------------                     ---9----||
(Блин, нет возможности нормальную картинку прикрепить... Хотя, я надеюсь, кому надо - поймет:))
   Меня интересует восходящий пассаж, являющийся зеркальным отражением нисходящего. Не совсем понятен штрих. Какие из нот он играет медиатором?

Оффлайн Acid

  • Эксперт
  • *****
  • Сообщений: 1471
  • Репутация: +63/-27
  • Зарегистрированный
    • Into The Floyd
Легато Шона Лэйна
« Ответ #1 : Февраля 22, 2005, 17:18:12 »
Я думаю сам Шон об этом не думал.

Оффлайн Nuno Автор темы

  • Опытный
  • ****
  • Сообщений: 758
  • Репутация: +16/-6
  • Зарегистрированный
    • http://
Легато Шона Лэйна
« Ответ #2 : Февраля 22, 2005, 19:22:25 »
Как раз он то об этом и думал. Нисходящую фразу он конкретно объясняет - поскольку это принципиально. А вот восходящую - нет и рассмотреть там не очень получается...

Оффлайн Reload

  • Эксперт
  • *****
  • Сообщений: 2898
  • Репутация: +124/-14
  • שלום :)
Легато Шона Лэйна
« Ответ #3 : Февраля 23, 2005, 05:01:16 »
У меня есть буклет Power Licks в pdf'е. 2мб. Если хошь, давай мыло, пришлю.

Чтобы текстовые табы нормально форматировались, их надо вставлять либо в тег [СODE] табы [/СODE] либо в <рrе> табы < /рrе>

Вот например:
|------6------| |------6------| |----6----| |----6----| |----6----|
S S S S S S S S S S S S S S S S S S S S S S S S S S S S S S
|-h7-h9-h5-h7----5---------------------------------------------------------||
|------------- h9---h7-h9-h5-h7----5-----------------------------------||
|------------------------------ h9---7-9-5-7---5------------------||
|----------------------------------------- --9---7-9-5-7---5----||
|---------------------------------------------------- ---9----||


|------6------| |------6------| |----6----| |----6----| |----6----|
S S S S S S S S S S S S S S S S S S S S S S S S S S S S S S
|-h7-h9-h5-h7----5---------------------------------------------------------||
|------------- h9---h7-h9-h5-h7----5-----------------------------------||
|------------------------------ h9---7-9-5-7---5------------------||
|----------------------------------------- --9---7-9-5-7---5----||
|---------------------------------------------------- ---9----||

Оффлайн Nuno Автор темы

  • Опытный
  • ****
  • Сообщений: 758
  • Репутация: +16/-6
  • Зарегистрированный
    • http://
2 Reload
« Ответ #4 : Февраля 24, 2005, 17:14:33 »
Кинул тебе в приват мыло. Пришли пожалуйста буклет.

Оффлайн Reload

  • Эксперт
  • *****
  • Сообщений: 2898
  • Репутация: +124/-14
  • שלום :)
Легато Шона Лэйна
« Ответ #5 : Февраля 24, 2005, 18:36:28 »
Послал :)

Вот, ктати, интересная стаейка!
http://www.essentialguitarist.com/Features_old/shawn%20lane/feature_shawn_lane_Licks.html

Оффлайн Nuno Автор темы

  • Опытный
  • ****
  • Сообщений: 758
  • Репутация: +16/-6
  • Зарегистрированный
    • http://
2 Reload
« Ответ #6 : Февраля 24, 2005, 22:24:51 »
Огромное спасибо - скачал! А у тебя случайно нет буклета к Doug Aldrich?

Оффлайн Reload

  • Эксперт
  • *****
  • Сообщений: 2898
  • Репутация: +124/-14
  • שלום :)
Легато Шона Лэйна
« Ответ #7 : Февраля 26, 2005, 01:06:06 »
Нетуть :(
Если вдруг че, буду иметь ввиду ;)