Автор Тема: Пентатоника 3 ноты на струне  (Прочитано 4485 раз)

0 Пользователей и 1 Гость просматривают эту тему.

Оффлайн vladlogv Автор темы

  • Эксперт
  • *****
  • Сообщений: 1614
  • Репутация: +10/-4
  • Cultosaurus Erectus
Пентатоника 3 ноты на струне
« : Февраля 20, 2003, 18:28:21 »
Хочу удобные аппликатуры. Рисуйте, и родина вас не забудет!!!

Оффлайн jaasco

  • Эксперт
  • *****
  • Сообщений: 2727
  • Репутация: +8/-17
  • Пульвелизатор ;)
    • http://
Пентатоника 3 ноты на струне
« Ответ #1 : Февраля 20, 2003, 19:19:16 »
Влад, родной, я тебя умоляю, как ты себе это представляешь????
там ж кварта через терцию, по три ноты на одной струне.... а еще и на бас гитаре гыгыгы... ну что я могу сказать.. режте себе пальцы и в перед... а главное что октава на второй струне и закончиться :) 5 на три не делится :)
ЗЫ если только речь не идет исключительно об открытой позиции...

Оффлайн Old TСR

  • Эксперт
  • *****
  • Сообщений: 1295
  • Репутация: +4/-0
  • ††† 2002-2005
    • http://
Re: Пентатоника 3 ноты на струне
« Ответ #2 : Февраля 21, 2003, 01:28:12 »
Цитировать
Автор оригинала vladlogv
Хочу удобные аппликатуры. Рисуйте, и родина вас не забудет!!!


Первая идея а ля Сатриани - ноты 5-ки по 3 крутятся в позиции, а значит нота (D) повторяется на 1 и 2й струнах. На 3-4 струне фраза переходит в гамму. Можно добавить тэппинг ребром медиатора. Играется легато любые фигурации из трех нот, как в гамме.
|10--12--15--12--10---------------------------------------------------------------------------
|---------------------------15--12--10---12--15--12--10------------------------------------
|------------------------------------------------------------------(12--11--9)--------------------
|---------------------------------------------------------------------------------(12---11--9-)---
|-----------------------------------------------------------------------------------------------------
|-----------------------------------------------------------------------------------------------------

Оффлайн Old TСR

  • Эксперт
  • *****
  • Сообщений: 1295
  • Репутация: +4/-0
  • ††† 2002-2005
    • http://
Пентатоника 3 ноты на струне
« Ответ #3 : Февраля 21, 2003, 01:33:04 »
Вторая - пентатоника в аппликатуре "три ноты на одной струне, одна на другой". Штрихи а ля Гамбале - пvп-п-пvп
|--------------------------------------------------15-17--15--12--------------------------------------
|-------------------------------------12-15-17---------------------15---------------------------------
|--------------------------------14---------------------------------------16-14-12--------------------
|------------------12-14-17---------------------------------------------------------14----------------
|-------------14-------------------------------------------------------------------------------------------
|12-15-17-----------------------------------------------------------------------------------------------

Но упираться в штрихи не обязательно, главное идея.

Оффлайн Old TСR

  • Эксперт
  • *****
  • Сообщений: 1295
  • Репутация: +4/-0
  • ††† 2002-2005
    • http://
Пентатоника 3 ноты на струне
« Ответ #4 : Февраля 21, 2003, 01:36:20 »
Третья идея - смесь Гамбале (свип на 4-3-2) и Гилберта (сдвиг позиций - можно свиповать, пш или легатные фигурации).
|-----------------------------------------------------12--15---17---15--12-------------------------------
|-------------10--12---15--12--10---12--15--------------------------------15--12---10-------------
|-------12-------------------------------------------------------------------------------------------12-------
|--14-----------------------------------------------------------------------------------------------------14--
|----------------------------------------------------------------------------------------------------------------
|----------------------------------------------------------------------------------------------------------------

Оффлайн Old TСR

  • Эксперт
  • *****
  • Сообщений: 1295
  • Репутация: +4/-0
  • ††† 2002-2005
    • http://
Пентатоника 3 ноты на струне
« Ответ #5 : Февраля 21, 2003, 01:55:52 »
Следующая идея а ля Джое Тафола. Это дело можно посмотреть на его видео. Буклет есть где-то в сети, я давал ссылку. Может его уже перетащили на GF. Антон знает.
Идея - три ноты на одной струне плюс три хроматические ноты (добавлена блюзовая b5) на другой струне. Это дело копируется по всем струнам в других октавах. Плюс мешается с такой же мажорной пентатоникой.
|15--12--10----------------------------------------------------------------------
|----------------12--11--10------------------------------------------------------
|--------------------------------12--9---7-----------------------------------------
|---------------------------------------------9---8---7-----------------------------
|---------------------------------------------------------10--7---5----------------
|-----------------------------------------------------------------------7--6---5----

Оффлайн Yul

  • Опытный
  • ****
  • Сообщений: 556
  • Репутация: +9/-0
  • Зарегистрированный
    • http://
Пентатоника 3 ноты на струне
« Ответ #6 : Февраля 21, 2003, 10:20:29 »
Я пот часто вижу здесь слово пентатоника (то, что это лад из пяти звуков я знаю, но их ведь много). А что под ним здесь подразумевается, блюзовый лад?

Оффлайн jaasco

  • Эксперт
  • *****
  • Сообщений: 2727
  • Репутация: +8/-17
  • Пульвелизатор ;)
    • http://
Пентатоника 3 ноты на струне
« Ответ #7 : Февраля 21, 2003, 10:29:44 »
да скорее всего речь идет про обычную блюзовую пятерку (A-C-D-E-G-A) и\или + к этому блюзовые ноты b5 и проч...
2 OLDTCR::xyxthumbs как обычно мне не хватило просто подумать головой :)

Оффлайн Old TСR

  • Эксперт
  • *****
  • Сообщений: 1295
  • Репутация: +4/-0
  • ††† 2002-2005
    • http://
Наивный ответ
« Ответ #8 : Февраля 21, 2003, 11:32:45 »
Цитировать
Автор оригинала Yul
А что под ним здесь подразумевается, блюзовый лад?

Подразумевается примерно то, что используют рог-китаристы и бюлз-гиратисты: чаще всего минорная 5-ка (плюс, возможно, еще b5 ступень), несколько реже параллельная мажорная (тогда add b3).
Другие пента-структуры или обращения, кажется, не рассматриваются.

Оффлайн vladlogv Автор темы

  • Эксперт
  • *****
  • Сообщений: 1614
  • Репутация: +10/-4
  • Cultosaurus Erectus
Пентатоника 3 ноты на струне
« Ответ #9 : Февраля 21, 2003, 12:07:34 »
Old, я предлагаю сделать тебе подпись: Хочешь сыграть? Спроси меня как!
Большое тебе человеческое спасибо :)

Оффлайн vladlogv Автор темы

  • Эксперт
  • *****
  • Сообщений: 1614
  • Репутация: +10/-4
  • Cultosaurus Erectus
to Anton (противным голосом Слепого Пью)
« Ответ #10 : Февраля 21, 2003, 12:16:14 »
Где Джое Тафола, Антон? нам нужен Джое Тафола!!!

Оффлайн Old TСR

  • Эксперт
  • *****
  • Сообщений: 1295
  • Репутация: +4/-0
  • ††† 2002-2005
    • http://
Re: to Anton (противным голосом Слепого Пью)
« Ответ #11 : Февраля 23, 2003, 03:50:18 »
Цитировать
Автор оригинала vladlogv
...нам нужен Джое Тафола!!!


http://ftp://195.128.81.187/Tafola_booklet.zip