Автор Тема: Pistolero Juno Reactor  (Прочитано 942 раз)

0 Пользователей и 1 Гость просматривают эту тему.

Оффлайн U4enik Автор темы

  • Новичок
  • *
  • Сообщений: 6
  • Репутация: +0/-1
Pistolero Juno Reactor
« : Марта 14, 2007, 16:12:22 »
у меня просьба =
подскажите пожалста как играется отрывок, особенно концовка соло
Pistolero
---------                         
By Juno Reactor


tabs by LickMe


140 bpm

Theme:

E
|-----------------------------------------------------------------|
|-----------------------------------------------------------------|
|-----------------------------------------------------------------|
|-6-----2-2---------------0--2--3-2-------------------------------|
|---------------------------------------2-2---------------0--2--3-|
|------------------(0)--------------------------------------------|

A E
|-----------------------------------------------------------------|
|-----------------------------------------------------------------|
|-----------------------------------------------------------------|
|-----------------------------------------------------------------|
|-5-----320------0--2-2-------------------------------------------|
|-------------4-------------0-0-----------------------------------|



Solo:

|-----------------------------------------------------------------|
|-----------------------------------------------------------------|
|-----2---4p2---5p2-4p2---4p2---------2---4p2---5p2-4p2---4p2-----|
|-2h3---3-----3---------3-----3-0-2h3---3-----3---------3-----3-0-|
|-----------------------------------------------------------------|
|-----------------------------------------------------------------|

|-----------------------------------------------------------------|
|-----------------------------------------------------------------|
|-----2---4p2---5p2-4p2---4p2-----0-----0-------------------------|
|-2h3---3-----3---------3-----3-0---0-2---0-2-3-0-0-3-0---2-0---0-|
|-------------------------------------------------------4-----4---|
|-----------------------------------------------------------------|

Оффлайн GrimGOR

  • Ветеран форума
  • ******
  • Сообщений: 4355
  • Репутация: +852/-218
  • Недалекий человек
Re: Pistolero Juno Reactor
« Ответ #1 : Марта 14, 2007, 20:05:47 »
Juno Reactor наверное известнейший музыкант, очень стыдно должно быть тем, кто не имеет в коллекции все его записи, но, если ты все-таки хочешь получить помощь, мог бы выложить отрывок песни, который тебя интересует...

Оффлайн perkele

  • Эксперт
  • *****
  • Сообщений: 1706
  • Репутация: +85/-33
  • жуть лесов
    • Bloodninja
Re: Pistolero Juno Reactor
« Ответ #2 : Марта 15, 2007, 14:38:10 »
Что-то как-то никаких сложностей-то и не видно...

А Juno Reactor - это мощнейший EBM, кстати. И вообще, знатный электронщик. =)

Оффлайн U4enik Автор темы

  • Новичок
  • *
  • Сообщений: 6
  • Репутация: +0/-1
Re: Pistolero Juno Reactor
« Ответ #3 : Марта 15, 2007, 17:30:18 »
вот собственно и audio

[вложение удалено Администратором]

Оффлайн Мутерфукер

  • Завсегдатай
  • ***
  • Сообщений: 497
  • Репутация: +766/-158
Re: Pistolero Juno Reactor
« Ответ #4 : Марта 16, 2007, 14:13:16 »
фигасе....не думал что на гитарплейере можно будет встретить упоминание о джуно реакторе 

Оффлайн U4enik Автор темы

  • Новичок
  • *
  • Сообщений: 6
  • Репутация: +0/-1
Re: Pistolero Juno Reactor
« Ответ #5 : Марта 18, 2007, 09:38:10 »
Да,кстати кто считает ээ..что здесь не особенно сложно может сделает кавер(не обязятельно 140 bpm :)) ...если не трудно

Оффлайн Gurtar

  • Частый посетитель
  • **
  • Сообщений: 129
  • Репутация: +4/-9
Re: Pistolero Juno Reactor
« Ответ #6 : Марта 19, 2007, 07:33:19 »
Кстати, джуно реактор - вторая вещь, что я сыграл на гитаре, тогда ещё на акустике. Первой была "Во саду ли в огороде", а второй - их мортал комбат :)Там что-то такое было:

|------------------------------------
|-------------0----------0---3---0---
|-----0---2-----2----0-0---0---0---0-
|-2-2---2---2------------------------
|------------------------------------
|------------------------------------

------------------------------------|
------------------------------------|
---------0---2-0----------0---0-----|
-0-0-4-0---0----------2---------4---|
------------------3-3---3---3-------|
------------------------------------|

Онлайн >>DEAN<<

  • Ветеран форума
  • ******
  • Сообщений: 4848
  • Репутация: +504/-157
  • Прожженный
Re: Pistolero Juno Reactor
« Ответ #7 : Марта 19, 2007, 12:24:58 »
С Джуно реактор Стив Стивенс играл:)

Оффлайн U4enik Автор темы

  • Новичок
  • *
  • Сообщений: 6
  • Репутация: +0/-1
Re: Pistolero Juno Reactor
« Ответ #8 : Марта 19, 2007, 18:21:10 »
Почти полная версия(для коллекции)

[вложение удалено Администратором]

Оффлайн Excalibure

  • Эксперт
  • *****
  • Сообщений: 1559
  • Репутация: +190/-50
  • SOLOIST
Re: Pistolero Juno Reactor
« Ответ #9 : Марта 20, 2007, 17:25:06 »
ИМХО-кал какой то(((