Автор Тема: Синхронизация рук  (Прочитано 8586 раз)

0 Пользователей и 1 Гость просматривают эту тему.

Оффлайн Reload Автор темы

  • Эксперт
  • *****
  • Сообщений: 2898
  • Репутация: +124/-14
  • שלום :)
Синхронизация рук
« : Августа 28, 2002, 12:13:02 »
Люди, посоветуйте что-нить!
Имеется в виду левая рука и игра медиатором, ессно :)
Может есть специальные упражнения... или какая-то система синхронизирования... :rolleyes:

Спасибо!

Оффлайн Tango

  • Эксперт
  • *****
  • Сообщений: 2616
  • Репутация: +10/-15
  • танцор. хороший.
    • http://
Синхронизация рук
« Ответ #1 : Августа 28, 2002, 12:46:59 »
а че тут. медленно и печально играешь kill the guy with the ball. или старые добрые 1234 по диагонали переменным штрихом
я имею ввиду
------------
------------
------- 4---
-----3------
---2--------
-1----------
итп

Оффлайн headless

  • Завсегдатай
  • ***
  • Сообщений: 256
  • Репутация: +2/-2
  • Зарегистрированный
Синхронизация рук
« Ответ #2 : Августа 28, 2002, 13:11:55 »
Тааааак... синхронизация говоришь.
Одной рукой рисуем круг, другой квадрат :roflmao:

Оффлайн Reload Автор темы

  • Эксперт
  • *****
  • Сообщений: 2898
  • Репутация: +124/-14
  • שלום :)
Синхронизация рук
« Ответ #3 : Августа 28, 2002, 13:13:18 »
***Танго
Ну дык я это всё играю, но результатов нифига не видно :( Т.е. дошёл до какого-то уровня, а дальше никак.

Скорее всего решение может быть чисто физиологическим. Какие-нить там совсем не гитарные упражнения на развитие концентрации внимания одновременно на разных действиях... вот.

Оффлайн Reload Автор темы

  • Эксперт
  • *****
  • Сообщений: 2898
  • Репутация: +124/-14
  • שלום :)
Синхронизация рук
« Ответ #4 : Августа 28, 2002, 13:15:00 »
***headless
Вот, вот! Что-то типа этого! Только по подробнее, если можно :)

Оффлайн headless

  • Завсегдатай
  • ***
  • Сообщений: 256
  • Репутация: +2/-2
  • Зарегистрированный
Синхронизация рук
« Ответ #5 : Августа 28, 2002, 14:26:19 »
Чаще всего проблема именно в природной синхронизации движений рук.
А вот сделать их движения независимыми непросто.
Совет вряд ли получится дать, кроме самого естественного в данной ситуации - играй то, что не получается и старайся сделать так, чтобы получилось. Скажешь: "да, блин, посоветовал. Это я и сам знаю".
Но дело в том, что я наблюдал, как люди справлялись с этой проблемой ничего особенного не делая. Просто упирались рогом в стену.
Вот, скажем мой барабанщик: Ногой и левой рукой нужно было играть простой четный ритм, а по хэту стучать триольки. Т.е. на такт приходилось два удара по бочке, два удара по малому барабану и ТРИ удара по хэту. Прием в дэт-метале стандартный. Он с ним мучился месяца 2 просто пытаясь его сыграть (и медленно и быстро - по-всякому). И добился своего, щас играет совершенно не думая.
На мой взгляд, здесь нет каких-то хитростей. Просто упорная напряженная работа.

Оффлайн Reload Автор темы

  • Эксперт
  • *****
  • Сообщений: 2898
  • Репутация: +124/-14
  • שלום :)
Синхронизация рук
« Ответ #6 : Августа 28, 2002, 14:47:00 »
Да, блин, посоветовал. Это я и сам знаю :D

Помоему "в лоб" эту проблему не решить. Я намного больше 2 месяцев мучаюсь и почти никаких результатов :( Лана, буду искать в сети... может найду кого-нить, кто этим серьёзно занимается :)

Спасибо за рассказ про барабанщика! ;)
Попробую сегодня постучать...

Оффлайн jaasco

  • Эксперт
  • *****
  • Сообщений: 2727
  • Репутация: +8/-17
  • Пульвелизатор ;)
    • http://
Синхронизация рук
« Ответ #7 : Августа 28, 2002, 15:08:22 »
а что именно не получается?

Оффлайн Reload Автор темы

  • Эксперт
  • *****
  • Сообщений: 2898
  • Репутация: +124/-14
  • שלום :)
Синхронизация рук
« Ответ #8 : Августа 28, 2002, 15:23:00 »
Ну, как бы это сказать... Кароче, наприме медиатор бъёт по струне раньше, чем её прижимает палец. Или наоборот бъёт слишком поздно. Это не постоянно, конечно, но бывает очень часто. Чем сложнее пассаж, чем больше внимания надо уделять сразу обеим рукам, тем хуже синхронизированность... Причём это не зависит от скорости, точнее зависит, но не принципиально. А отдельно медиатор или левая рука работают почти идеально... вот :(
:)

Оффлайн jaasco

  • Эксперт
  • *****
  • Сообщений: 2727
  • Репутация: +8/-17
  • Пульвелизатор ;)
    • http://
Синхронизация рук
« Ответ #9 : Августа 28, 2002, 16:14:19 »
и опять ты наверное это итак знаешь, но могут помочь:
1. Игра короткими кусочками. Играй пассаж вставляя паузу через каждую третью, четвертую и так далее ноту. Полезно ирать пассаж сначала до второй, по том до третьей потом до четвертой и тд ноты.
2. Играть упражнения на переходы между струнами. Чаще всего там начинаются проблемы.
3. Играть непривычные фигурации. Пассажи с "возвращениями" и прочая. Например:


 4/4
  Gtr I
|-16-14-16-14-11-14-11----------------11----------|
|----------------------14-13-14-13-14----13-14-13-|
|-------------------------------------------------|
|-------------------------------------------------|
|-------------------------------------------------|
|-------------------------------------------------|


|--------------------------------------------------|
|-14-13-11-----------------------------------------|
|----------13-11-10-11-13-11-10-11-10----10-11-10--|
|-------------------------------------13-----------|
|--------------------------------------------------|
|--------------------------------------------------|


|-----------------------------------------------|-----------------------------*|
|-----------------------------------------------|-----------------------------*|
|-------------------10-11-10--------------------|-----------------------------*|
|-13-11----10-11-13----------13-11-10-----------|-----------------------------*|
|-------13----------------------------13-11-9-8-|-9-11-9-8-9-8-6-8-6-[4]b7----*|
|-----------------------------------------------|-----------------------------*|

интересно узнеает кто нибуть? :cool:

Оффлайн Attitude

  • Живу на форуме
  • *******
  • Сообщений: 7576
  • Репутация: +796/-190
  • I'm listening!
***Reload
« Ответ #10 : Августа 28, 2002, 20:26:26 »
Всё на самом деле очень просто!
Берёшь и играешь трандартные ГИлбертовские вертушки!

                        ^
|-----------------12----------------------|
|--12-13-15----------15-13-12----о-|
|------------------------------------------|
|------------------------------------------|
|----------------------------------------о-|
|-------------------------------------------|

                         
                         ^
|----------12-14-15-14-12----------|
|--15---------------------------------о-|
|-----------------------------------------|
|-----------------------------------------|
|--------------------------------------о-|
|-----------------------------------------|

                  ^    
|---------------------------------------------------------------------|
|---------------------------------------------------------------------|
|---------------------------------------------------------------------|
|---------------------------------------------------------------------|
|--------------8------------------------8-10-12--------------------|
|--8-10-12------12-10-8-10-12---------------------------------|

и т.д.  Да любые секвенции!! На три струны... хотя это сложнее.  И делить на маленькие кусочки.

^ - сильный, чёткий акцент.




Оффлайн Reload Автор темы

  • Эксперт
  • *****
  • Сообщений: 2898
  • Репутация: +124/-14
  • שלום :)
Синхронизация рук
« Ответ #11 : Августа 29, 2002, 01:59:00 »
Спасибо, ребята! ;)
Но всё таки не всё так просто, как может показаться на первый взгляд :p

Если честно, меня эта синхронизация пока не очень то и напрягает :) Но я знаю, настанет день, когда я буду кусать колки, вспоминая завещяние великого ВИЛа "не оставляй на завтра то, что можешь выпить сегодня" :kill:

Кстати, я тут нашёл интересную книженцию про развитие памяти. Там и координация с синхронизацией есть. Буду читать, т.е. учить :ylsuper:

Оффлайн Gitarero

  • Частый посетитель
  • **
  • Сообщений: 245
  • Репутация: +0/-0
  • Зарегистрированный
Синхронизация рук
« Ответ #12 : Августа 29, 2002, 20:41:17 »
2Attitude:
Хотел тебя поправить. Если я правильно понял , акценты ты поставил на первых нотах. Это не правильно, т.к. в сескстолях акцент должен быть на 4ю ноту или по крайней мере в мозгах акцент должен быть на 4ю ноту, а в руках на первую.
Большинство скоростных пассажей потому и строятся на 6-лях.
При акценте на 4ю ноту получается играть намного быстрее.

Оффлайн Attitude

  • Живу на форуме
  • *******
  • Сообщений: 7576
  • Репутация: +796/-190
  • I'm listening!
***Gitarero
« Ответ #13 : Августа 29, 2002, 20:59:39 »
Чёрт! Точно!!
Только заметил! Сбилось просто!! Конечно на 4-ю!!;)
Хорошо, что ты заметил!

Оффлайн K0Lyosik

  • Частый посетитель
  • **
  • Сообщений: 152
  • Репутация: +2/-1
  • Местный
Блин та же самая проблему у меня
« Ответ #14 : Января 21, 2003, 01:10:38 »
 Reload, если че нить интере сное на эту тему нашёл плиз поделись...