Автор Тема: Solfegieto played by Olaf Lenk  (Прочитано 541 раз)

0 Пользователей и 1 Гость просматривают эту тему.

Оффлайн Atomic Runner Автор темы

  • Эксперт
  • *****
  • Сообщений: 1363
  • Репутация: +616/-400
Solfegieto played by Olaf Lenk
« : Апреля 25, 2007, 16:31:59 »
Как народ считает использует Олаф там свип или нет, в оригинале играется в 140 и я не могу понять играет он там свипом допустим в тех же тактах 5,6 или всё же играет переменным,вроде как на слух там нету такого ярковыраженного свипа, вот у меня и подкралось такое сомнение что это мягкий такой ровный пикинг

Оффлайн Muerto

  • Эксперт
  • *****
  • Сообщений: 1563
  • Репутация: +250/-58
  • Гитара=Жизнь
    • Место заработать на гитару
Re: Solfegieto played by Olaf Lenk
« Ответ #1 : Апреля 25, 2007, 16:47:03 »
Atomic Runner - Эту вешь не слышал,но подозриваю что ты об этом-
-
-                       7
-                9   9
-       9    9    9        и тп.
-    7    7
- 7

  d  d  d u d d u ...
ну или можно так (пожалуй правильней)
  d d u d d u d d

Как раз будет как ты описал "мягкий такой ровный пикинг"
« Последнее редактирование: Апреля 25, 2007, 16:51:43 от Muerto »

Оффлайн Atomic Runner Автор темы

  • Эксперт
  • *****
  • Сообщений: 1363
  • Репутация: +616/-400
Re: Solfegieto played by Olaf Lenk
« Ответ #2 : Апреля 25, 2007, 17:04:22 »
----------------17-12----13----------------------|
-----------------------13-------------------------|
--17-14-------------------------------------14-17-|
--------14----------------------------12-15-------|
-----------15-12-------------------12-------------|
-----------------------------10-13----------------|


   S  S  S  S  S  S  S  S  S S  S  S  S  S  S  S 
-----------------15-10----12---------------------|
-----------------------12---------------------12-|
--16-12------------------------------------12----|
--------12---------------------------10-14-------|
-----------14-10------------------10-------------|
-----------------------------8-12----------------|


Вот это батва, в принципе тут можно использовать небольшой свип по двум струнам но я это я чё то как то не особо слышу. Мож я глухой ? :)