Автор Тема: Соло Dream Theatre  (Прочитано 825 раз)

0 Пользователей и 1 Гость просматривают эту тему.

Оффлайн Bk Автор темы

  • Опытный
  • ****
  • Сообщений: 987
  • Репутация: +67/-0
  • Борк
Соло Dream Theatre
« : Марта 08, 2005, 23:40:35 »
Конкретно песня In the name of God с альбома Train of Through

меня интересует момент 8мин 30сек - там идёт оч интересный кусок полностью легатного соло.

Кто нибудь разбирал его или мож есть табы?
Буду оч благодарен за инфу:)

Оффлайн Reload

  • Эксперт
  • *****
  • Сообщений: 2898
  • Репутация: +124/-14
  • שלום :)
Соло Dream Theatre
« Ответ #1 : Марта 09, 2005, 02:06:43 »
Где-то были нормальные табы, а на счет этих не уверен в их правильности. Помоему это все надо сместить на 1,5 тона вниз. А мож и нет. Самой пестни нет под рукой, так что точнее не скажу :)
Interlude 8:36
   4/4
    Gtr IV
     |------6-------|  |-------6-------|  |------6-------|  |-------6-------|
     S  S  S  S  S  S  S  S  S  S  S   S  S  S  S  S  S  S  S  S  S  S  S   S
||--19h20h22------------------------------------------------------------------|
||o----------21h22h24-18h21h22p21p18-----18h21h22-17h18h21-15h17h18p17p15-----|
||-----------------------------------h21----------------------------------h17-|
||----------------------------------------------------------------------------|
||o---------------------------------------------------------------------------|
||----------------------------------------------------------------------------|


   |------6-------|  |-------6-------|  |-------6-------| |-----6-----|
   S  S  S  S  S  S  S  S   S  S  S  S  S  S  S  S  S   S S  S S S  S S
|-----------------------------------------------------------------------|
|-13h15h17p15p13--------------------------------------------------------|
|----------------16p14p13-----13h14h16p14p13--------------9h10p9p7------|
|-------------------------h15----------------15p14p12--------------10p9-|
|-----------------------------------------------------h15---------------|
|-----------------------------------------------------------------------|


   |------6-------|  |------6-------|  |-------6-------|  |------6-------|
   S  S  S  S  S  S  S  S  S  S  S  S  S  S  S  S  S   S  S  S  S  S  S  S
|--------------------------------------------------------------------------|
|-----------------------------------------------------------------13h15h17-|
|-------------------------------------13h14h16p14p13-----13h14h16----------|
|-------------10h12h14p12p10h12h14h15----------------h15-------------------|
|-12p11h12h14--------------------------------------------------------------|
|--------------------------------------------------------------------------|


  1.
   |-------6-------|  |-------6-------|  |-------6-------|  |-------6-------|
   S  S   S  S  S  S  S  S  S  S  S   S  S  S  S  S  S   S  S  S  S  S  S   S
|--------------------13h16h17p16p13-----16h17h19p17p16-----17h19h20p19p17------||
|-15p13-----13h15h17----------------h17----------------h18----------------h21-o||
|-------h16--------------------------------------------------------------------||
|------------------------------------------------------------------------------||
|-----------------------------------------------------------------------------o||
|------------------------------------------------------------------------------||


  2.
   |-------6-------|  |-------6-------|  |-------6-------|  |------6-------|
   S  S  S   S  S  S  S  S  S  S  S   S  S  S  S  S  S   S  S  S  S  S  S  S
|--------------------13h16h17p16p13-----16h17h19p17p16-----17h19h20-19h20h22-|
|-15p13-----13h15h17----------------h17----------------h18-------------------|
|-------16p------------------------------------------------------------------|
|----------------------------------------------------------------------------|
|----------------------------------------------------------------------------|
|----------------------------------------------------------------------------|


               |--3--|  |------6-------|  |------6-------|  |------6-------|
   T  T  T  T  S  S  S  S  S  S  S  S  S  S  S  S  S  S  S  S  S  S  S  S  S
|-24p22p20p19-22p20p19-20p19p17p16h17h19-20p19p17h19p17p16-17p16----------16-|
|----------------------------------------------------------------18p17h18----|
|----------------------------------------------------------------------------|
|----------------------------------------------------------------------------|
|----------------------------------------------------------------------------|
|----------------------------------------------------------------------------|


   |------6-------|  |------6-------|  |------6------|  |-----6------|
   S  S  S  S  S  S  S  S  S  S  S  S  S  S  S  S  S S  S S  S  S  S S
|-17p16p13-16p13p12-13p12----------12-13p12p10-12p10p8-10p8----------8-|
|-------------------------15p13h15--------------------------12p10h12---|
|----------------------------------------------------------------------|
|----------------------------------------------------------------------|
|----------------------------------------------------------------------|
|----------------------------------------------------------------------|


                   |----6-----| |----6----| |----6----|
   T T T T T T T T S S S  S S S S S S S S S S S S S S S
|-10p8p7p5-8p7p5p4-7p5p4----4h5-7p5p4-------------------|
|------------------------h6-----------6p5p3-5h6p5p3-----|
|---------------------------------------------------5p4-|
|-------------------------------------------------------|
|-------------------------------------------------------|
|-------------------------------------------------------|


  |----6----| |-----7------| |---5---| |---5---|          |---5---|
  S S S S S S S S S S S  S S T T T T T T T T T T  T T T T T T T T T
|-------------4h5h7-5p4----5-7p5p4h5h7-8p7p6h7h8-10p8p7p5-7h8p7p6h7-|
|-------3h5h6-----------h6------------------------------------------|
|-2h4h5-------------------------------------------------------------|
|-------------------------------------------------------------------|
|-------------------------------------------------------------------|
|-------------------------------------------------------------------|


             |-3--|        |-3-|           |---3---|
  T  T T  T  T  T T +T  T  T T T +T  T  T  T  T a  T  T  T  T  T  T  T  T T  T  T  T  T  T  T  T  T  T
|-8h10p7h10-12p10p8-(8)-8-10p8p7-(7)-8h10h12p10-8s10h12-13p12p10-10h12p10p8h12-13p12p10h12-13h16p13p12--|
|-------------------------------------------------------------------------------------------------------|
|-------------------------------------------------------------------------------------------------------|
|-------------------------------------------------------------------------------------------------------|
|-------------------------------------------------------------------------------------------------------|
|-------------------------------------------------------------------------------------------------------|


   |------6-------|  |-----5-----|  |-----5-----|  |-----5-----|  |-----5-----|  |-----5-----|  |-----5-----|  |-----5-----|
   T  T  T  T  T  T  T  T  T  T  T  T  T  T  T  T  T  T  T  T  T  T  T  T  T  T  T  T  T  T  T  T  T  T  T  T  T  T  T  T  T
|-13h14p13p12h13h14-15p14p13h14h15-16p15p14p13h14-15p14p13h14h15-16p15p14h15h16-17p16p15p14h15-16p15p14h15h16-17p16p15h16h17-|
|----------------------------------------------------------------------------------------------------------------------------|
|----------------------------------------------------------------------------------------------------------------------------|
|----------------------------------------------------------------------------------------------------------------------------|
|----------------------------------------------------------------------------------------------------------------------------|
|----------------------------------------------------------------------------------------------------------------------------|


   |-----5-----|                          |-----5-----|                          |-----5-----|
   T  T  T  T  T  T  T  T  T  T  T  T  T  T  T  T  T  T  T  T  T  T  T  T  T  T  T  T  T  T  T  T  T  T  T
|-18p17p16p15h16-17p16p15h16-18p17p16h17-19p18p17p16h17-18p17p16h17-19p18p17h18-20p19p18p17-17-19p18p17h19-|
|----------------------------------------------------------------------------------------------------------|
|----------------------------------------------------------------------------------------------------------|
|----------------------------------------------------------------------------------------------------------|
|----------------------------------------------------------------------------------------------------------|
|----------------------------------------------------------------------------------------------------------|


   T  T  T  T  T  T  T  T  T  T  T  T  T  T  T  T  T  T  T  T  T  T  T  T  T  T  T  T  T  T  T  T
|-20p19p18h19-21p20p18h19-20p19p18h19-21p20p19h20-22p21p20p19-21p20p19h20-22p21p20h21-23p22p21h22-|
|-------------------------------------------------------------------------------------------------|
|-------------------------------------------------------------------------------------------------|
|-------------------------------------------------------------------------------------------------|
|-------------------------------------------------------------------------------------------------|
|-------------------------------------------------------------------------------------------------|


     T  T  T  T  T  T  T  T  T  T  T  T  T  T  T  T  T  T  T  T  T  T  T  T  T  T  T  T  T  T  T  T  4x
||--24p23p22h23-24p23p22h23-24p23p22h23-24p23p22h23-24p23p22h23-24p23p22h23-24p23p22h23-24p23p22h23--||
||o-------------------------------------------------------------------------------------------------o||
||---------------------------------------------------------------------------------------------------||
||---------------------------------------------------------------------------------------------------||
||o-------------------------------------------------------------------------------------------------o||
||---------------------------------------------------------------------------------------------------||


Оффлайн Bk Автор темы

  • Опытный
  • ****
  • Сообщений: 987
  • Репутация: +67/-0
  • Борк
Соло Dream Theatre
« Ответ #2 : Марта 09, 2005, 12:51:08 »
Reload
Большое спасибо!:)

Оффлайн Bk Автор темы

  • Опытный
  • ****
  • Сообщений: 987
  • Репутация: +67/-0
  • Борк
Соло Dream Theatre
« Ответ #3 : Марта 09, 2005, 12:52:40 »
Если появятся табы - плиз скинь на мыло [email protected]

Оффлайн Reload

  • Эксперт
  • *****
  • Сообщений: 2898
  • Репутация: +124/-14
  • שלום :)
Соло Dream Theatre
« Ответ #4 : Марта 09, 2005, 16:04:00 »
ОК :)

Оффлайн Flynn

  • Опытный
  • ****
  • Сообщений: 852
  • Репутация: +15/-1
  • Зарегистрированный
Соло Dream Theatre
« Ответ #5 : Марта 09, 2005, 19:45:12 »
Guitar Pro 4 есть?  В приложении табы.

Оффлайн Bk Автор темы

  • Опытный
  • ****
  • Сообщений: 987
  • Репутация: +67/-0
  • Борк
Соло Dream Theatre
« Ответ #6 : Марта 09, 2005, 22:35:18 »
Flynn

О спасибо!
Гитарпро есть:)

Оффлайн Bk Автор темы

  • Опытный
  • ****
  • Сообщений: 987
  • Репутация: +67/-0
  • Борк
Соло Dream Theatre
« Ответ #7 : Марта 09, 2005, 22:36:25 »
Осталось только сыграть эту чертовски - сложную тему:)