Автор Тема: Что он играет?  (Прочитано 1121 раз)

0 Пользователей и 1 Гость просматривают эту тему.

Оффлайн zagzag Автор темы

  • Завсегдатай
  • ***
  • Сообщений: 407
  • Репутация: +3/-12
Что он играет?
« : Февраля 07, 2017, 03:53:32 »

что играет джеймс?

какие простые аккорды не могу понять какие... я в общем то только соляки играю .....
кто может помочь с табами разобраться?

похоже на это

D#|-------------3----0---|-2---2-2-2-3--0--0-0-----|
A#|---------0----------0-|-3---3-3-3-3--3--3-3-----|
F#|-----0----------0-----|-2---2-2-2-2--0--0-0-----| x2
C#|----------------------|-0---0-0-0-0--2--2-2-----|
G#|----------------------|--------------3--3-3-----|
D#|-0--------------------|---------------------3-2-|
   So close, no matter how far...

D#|-------------3----0---|-2---2-2-2-3--0--0-0-----------3--2------2----|
A#|---------0----------0-|-3---3-3-3-3--3--3-3-----------3--0--------0--|
F#|-----0----------0-----|-2---2-2-2-2--0--0-0---------0----2-----------|
C#|----------------------|-0---0-0-0-0--2--2-2--------------1----1------|
G#|----------------------|--------------3--3-3--------------2--2--------|
D#|-0--------------------|---------------------0-2-3--------------------

но звук у меня 100% другой
я конечно понимаю что лопата бяка но не такой же степени

Оффлайн Алиса84

  • Эксперт
  • *****
  • Сообщений: 2502
  • Репутация: +775/-23
  • GuitarPlayer.Ru fan!
Re: Что он играет?
« Ответ #1 : Февраля 07, 2017, 04:33:04 »
Особенно "табы" понравились! Они буквально плывут куда-то! Бедный Джеймс... :7:

Оффлайн Cieco

  • Опытный
  • ****
  • Сообщений: 927
  • Репутация: +393/-2
Re: Что он играет?
« Ответ #2 : Февраля 07, 2017, 13:39:38 »
я думал, что нет на свете соло-гитариста, который не знает какие аккорды в этой песне  ???
обычно эта вещь разучивается одной из первых

... и добавил:

табов на нее миллион

Оффлайн Deus.softweb.ru

  • Ветеран форума
  • ******
  • Сообщений: 5605
  • Репутация: +803/-137
  • Caramel Macchiato
    • Deus
Re: Что он играет?
« Ответ #3 : Февраля 08, 2017, 13:28:58 »
тадам!