Автор Тема: Greg Howe Bach Mock  (Прочитано 1229 раз)

0 Пользователей и 1 Гость просматривают эту тему.

Оффлайн Borg Sex Автор темы

  • Завсегдатай
  • ***
  • Сообщений: 281
  • Репутация: +10/-14
  • Шиндыр-дыр-машина
    • GuitarLine
Greg Howe Bach Mock
« : Января 23, 2005, 22:39:17 »
Народ кто снимал эту вещь, подскажите как он играет  секвенцию в гарм миноре, начинается она на 40 секунде сразу после арпеджио Bbm.

Оффлайн Borg Sex Автор темы

  • Завсегдатай
  • ***
  • Сообщений: 281
  • Репутация: +10/-14
  • Шиндыр-дыр-машина
    • GuitarLine
Greg Howe Bach Mock
« Ответ #1 : Января 26, 2005, 20:25:02 »
Ну че никто не снимал чтоль.
Хоть ктонить подскажите какая там пальцовка/аппликатура, а то я из-за проблем с инстом никак не могу понормальному снять.

Оффлайн Hadgehog

  • Новичок
  • *
  • Сообщений: 56
  • Репутация: +0/-1
  • Зарегистрированный
Greg Howe Bach Mock
« Ответ #2 : Января 27, 2005, 00:26:11 »
А все, что до 40 секунды ты снял? Я вот сегодня начал снимать, пока дошел до этого момента)) Хочу сравнить.

Оффлайн Borg Sex Автор темы

  • Завсегдатай
  • ***
  • Сообщений: 281
  • Репутация: +10/-14
  • Шиндыр-дыр-машина
    • GuitarLine
Greg Howe Bach Mock
« Ответ #3 : Января 28, 2005, 01:00:45 »
Послезавтра разберусь с сессией и постараюсь весь труд забить в ноты.

А пока вот кусок из начала:

   
|------------------18-17-|-18----------18-17-14-------14-------------|
|-^-7-----(7)------------|----------------------18-16----18----------|
|-^-8-----(8)------------|----15-14-15----------------------17-14----|
|-^10----(10)------------|----------------------------------------15-|
|-^-9-----(9)------------|-------------------------------------------|
|------------------------|-------------------------------------------|


                             
 
|---------------------------------------------|
|---------------------------------------------|
|-15----------15-14-11-------11---------------|
|----------------------15-13----15------------|
|----13-12-13----------------------15-12------|
|----------------------------------------13---|


 
|-------------9-13------------8-11------------|
|----------11------11------10------10---------|
|-------10------------10-8------------8-------|
|----11---------------------------------10----|
|-13---------------------------------------12-|
|---------------------------------------------|


 
|-------------9-13-------------11-14-------------|
|----------11------11-------13-------13----------|
|-------10------------10-11-------------11-------|
|----11------------------------------------13----|
|-13------------------------------------------15-|
|------------------------------------------------|


 
|-------------------------------------13-16-------|
|----------------------------------14-------14----|
|-------10-11-------11-13-------13-------------13-|
|----11-------10-13-------11-15-------------------|
|-13----------------------------------------------|
|-------------------------------------------------|


 
|-18p14----------------------------------------|
|-------16-------------------------------------|
|----------15----------------------------15-14-|
|-------------16-15----------------------------|
|-------------------18-16-15-------15----------|
|----------------------------18-17----18-------|


 
|-------------------------------------17----|
|----------------------------16-18-19----19-|
|-15----------15-14-15-17-18----------------|
|-------------------------------------------|
|----13-12-13-------------------------------|
|-------------------------------------------|


   
|-18\----------18-17-14-------14-------------|
|-----------------------18-16----18----------|
|-----15-14-15----------------------17-14----|
|-----------------------------------------15-|
|--------------------------------------------|
|--------------------------------------------|


 
|-------13h18p13----------------------------------|
|----14----------14-------------13-16-------------|
|-15----------------15-------14-------14----------|
|----------------------15-13-------------13-------|
|-------------------------------------------15-12-|
|-------------------------------------------------|


 
|-------------9-13-------------11-14-------------|
|----------11------11-------13-------13----------|
|-------10------------10-11-------------11-------|
|----11------------------------------------13----|
|-13------------------------------------------15-|
|------------------------------------------------|


 
|-------------------------------------13-16-------|
|----------------------------------14-------14----|
|-------10-11-------11-13-------13-------------13-|
|----11-------10-13-------11-15-------------------|
|-13----------------------------------------------|
|-------------------------------------------------|


 
|-18p14------------------------------------|
|-------16---------------------------------|
|----------15------------------------------|
|-------------16-15------------------------|
|-------------------18-16-15-------15------|
|----------------------------18-17----18---|

Соответственно практически везде свип
Если че то не так (хотя вслушивался на замедлении довольно сосредоточенно) пиши.
Снимать этот кусок мне уже просто стало лень, прошел жор на эту вещь и я в конце играю гармонический Bb минор и затем выхожу на его визг на 20 ладах.

Оффлайн Borg Sex Автор темы

  • Завсегдатай
  • ***
  • Сообщений: 281
  • Репутация: +10/-14
  • Шиндыр-дыр-машина
    • GuitarLine
Greg Howe Bach Mock
« Ответ #4 : Января 28, 2005, 01:09:06 »
Кстати теперь уже интересует Steve Morse BusyBodies из SplitDescision 2 песня.
Толко вот там все понятно с нотами, непонятно КАК он делает ТАКОЕ вибрато если кто может подсказать пишите.

Оффлайн Hadgehog

  • Новичок
  • *
  • Сообщений: 56
  • Репутация: +0/-1
  • Зарегистрированный
_
« Ответ #5 : Января 28, 2005, 16:00:40 »
Записал в ptb то, что получилось снять. Длительности нот после 40 секунды условные…и не везде указаны хамеры из ниоткуда…ну я думаю сам разберёшься))))

Оффлайн Borg Sex Автор темы

  • Завсегдатай
  • ***
  • Сообщений: 281
  • Репутация: +10/-14
  • Шиндыр-дыр-машина
    • GuitarLine
Greg Howe Bach Mock
« Ответ #6 : Января 29, 2005, 22:14:07 »
Чёт я скачать не могу.
Хотя уже сессию сдал и сегодня доснимал всю вещь до конца.
Правда мне интересно было бы посмотреть на его пальцовку при переходе от последнего арпеджио Bbm к гамме.
Но и это отшлифую...

Спасибо в любом случае!