Автор Тема: Preston Reed - Tractor Pull base riff  (Прочитано 1811 раз)

0 Пользователей и 1 Гость просматривают эту тему.

Оффлайн jaasco Автор темы

  • Эксперт
  • *****
  • Сообщений: 2727
  • Репутация: +8/-17
  • Пульвелизатор ;)
    • http://
Preston Reed - Tractor Pull base riff
« : Марта 20, 2007, 11:44:09 »
Всем привет.
Это табы двух рифов из темы Tractor Pull с альбома Handwritten Notes.
T - тэпинг правой рукой.
h - тэпинг левой рукой, которая находится над грифом.
Ноты ровные шестнадцатые. Тэмп порядка 160 bpm.
Открытые ноты на 3-ей струне беруться m пальцем правой руки.
Не смотря на то, что в этом строе вторая и третья струна звучат в унисон, рекомендую играть тэпинг на третьем ладу левой рукой начиная именно со второй струны. В этом случае руки меньше перекрывают друг друга и оба рифа играются единообразно.
Строй снизу вверх - CGDggd. В оригинале Престон настроен на тон ниже.
Это мой вариант, я не претендую на правильность табов.
Надеюсь, кому-нибуть пригодится. Табов этой вещи нигде не встречал, надеюсь доведу эту работу до полной версии.

Riff A:
Gtr I (C G D G G D)
  Q=160
 4/4
  Gtr I
        T         T         T         T         T         T         T         T
|-----------------5p0-------------------------------------5p0------------------------||
|-----------h3----------------0-h3----7p0-----------h3----------------0-h3----7p0---o||
|---------0----h3-5---------5------h3-------------0----h3-5---------5------h3--------||
|-------7----------------h3-----------7---------7-----------------------------7------||
|----h7---------------h3---------------------h3------------------h5-----------------o||
|-h7--------------------------------------h3------------------h5---------------------||

Riff B.
        T         T          T          T          T          T          T         T
                                                                                       4x
|-------12p0-h3---12p0----------------------------------------10p0-------------------------||
|--------------h3------------12p0-h3----12p0-------12p0-h3---------------10p0-h3----7p0---o||
|-------12--------12-----------------h3--------------------h3-10-----------------h3--------||
|-------------------------h3-12---------12---------12--------------------10---------7------||
|----h7----------------h3-----------------------h3--------------------h5------------------o||
|-h7-----------------------------------------h3--------------------h5----------------------||

PS: Видео в исполнении самого Престона не встречал, на ютубе валяется несколько версий исполнений разных пацанчиков.(Отнеситесь с пониманием к качеству звука и т.д. Оригинал конечно же круче.)

Оригинал в mp3:
http://ifolder.ru/1441552
« Последнее редактирование: Марта 21, 2007, 13:10:36 от jaasco »

Оффлайн Mister_X

  • Новичок
  • *
  • Сообщений: 20
  • Репутация: +1/-1
Re: Preston Reed - Tractor Pull base riff
« Ответ #1 : Апреля 08, 2007, 15:10:21 »
 Я набивал Preston Reed пару вещей в GuitarPro
 для этого даже разработал свою спец систему обозначений различных ударов по корпусу гитары
 сделал также сводный файл-каталог  по вещам Preston Reed

эти табы (Рифф А, Рифф B) - тоже токо что забил в GuitarPro,
хотя не проверял еще - надо замедлить mp3 и гитару перестроить (позже проверю)

пиши мне на vngitars@yandex.ru
обменяемся информацией

Оффлайн jaasco Автор темы

  • Эксперт
  • *****
  • Сообщений: 2727
  • Репутация: +8/-17
  • Пульвелизатор ;)
    • http://
Re: Preston Reed - Tractor Pull base riff
« Ответ #2 : Апреля 14, 2007, 01:26:05 »
вообще то между рифами есть один небольшой бридж.. я его пропустил...
надо взять себя в руки и оттабить еще несколько кусочков разных вещей... если кому то этот стиль интересен :)

Оффлайн Mister_X

  • Новичок
  • *
  • Сообщений: 20
  • Репутация: +1/-1
Re: Preston Reed - Tractor Pull base riff
« Ответ #3 : Апреля 14, 2007, 02:35:31 »
ой
извини
я думал, ты с другого форума, и решил типа поиздеваться ...

просто в тексте письма не было упоминания про  Preston Reed

щас я вышлю всю поляну ...