Автор Тема: Tab"s Gorky Park  (Прочитано 5942 раз)

0 Пользователей и 1 Гость просматривают эту тему.

Оффлайн gammarus Автор темы

  • Новичок
  • *
  • Сообщений: 44
  • Репутация: +5/-2
Tab"s Gorky Park
« : Апреля 16, 2007, 23:16:24 »
    Чуваки у кого-нибудь есть табы нормальные или еще лучше в Guitar Pro или MIDI файлы вот этих песен вышлите, пожалуйста, на мыло nameless79 @ mail.ru очень нужно:

Gorky Park “Stare”
Gorky Park “Moscow Calling”
Bryan Adams “The only thing that looks good on me is you”
Gipsy Kings “Bomboleo”

Оффлайн stereomaniac

  • Опытный
  • ****
  • Сообщений: 913
  • Репутация: +609/-120
  • осторожно, готичен!
Re: Tab"s Gorky Park
« Ответ #1 : Апреля 17, 2007, 18:18:02 »
Ага....и по возможности ссылку киньте плиз.....особенно на Moscow calling

Оффлайн busybox

  • Частый посетитель
  • **
  • Сообщений: 244
  • Репутация: +260/-49
  • We are the champions my friend!
Re: Tab"s Gorky Park
« Ответ #2 : Августа 25, 2007, 13:22:55 »
Ну что, народ, удалось что-нибудь откопать?

Оффлайн busybox

  • Частый посетитель
  • **
  • Сообщений: 244
  • Репутация: +260/-49
  • We are the champions my friend!
Re: Tab"s Gorky Park
« Ответ #3 : Августа 27, 2007, 00:12:57 »
Кстате, снял тут на  днях стартовый риф All Roads. Зацените на адекватность.

|----------------------------------|--------------------------------|
|----------------------------------|--------------------------------|
|--/7------------------------------|--/7-------------------------5--|
|--/7---5------5-----------5---7---|--/7---5------5----------5---5--|
|---5------8-------5---8-------8---|---5------8-------5---8---------|
|----------------------------------|--------------------------------|

|----------------------------------|--------------------------------|
|----------------------------------|--------------------------------|
|--/7--------------------------5---|--/7----------------------------|
|--/7---5------5-----------5---5---|--/7---5------5----------5---5--|
|---5------8-------5---8-------6---|---5------8-------5---8------3--|
|----------------------------------|--------------------------------|
 

Оффлайн kinar

  • Меценат
  • *****
  • Сообщений: 1340
  • Репутация: +1111/-122
  • Те чё?
    • Старые медицинские книги
Re: Tab"s Gorky Park
« Ответ #4 : Сентября 05, 2007, 22:59:28 »
Снял тут на днях кое-что из Moscow Calling - 0:23-0:28. Но вот не могу понять, что там играется на 2 долю 1 такта? Пробовал ля на 6 струне и си бемоль, но что-то не нравицца...



5I-5--5--?-----------I-------------I------3-I
6I-------?--6--5--6--I-3--1--3----5--3--5--I

Кому ритм важен - таба прилагается в ГП5 (переименовать файл в Парк.gp5)

Оффлайн busybox

  • Частый посетитель
  • **
  • Сообщений: 244
  • Репутация: +260/-49
  • We are the champions my friend!
Re: Tab"s Gorky Park
« Ответ #5 : Сентября 16, 2007, 00:26:53 »
Снял тут на днях кое-что из Moscow Calling - 0:23-0:28. Но вот не могу понять, что там играется на 2 долю 1 такта? Пробовал ля на 6 струне и си бемоль, но что-то не нравицца...

Таба не открывается...Версия ГП 5.0


5I-5--5--?-----------I-------------I------3-I
6I-------?--6--5--6--I-3--1--3----5--3--5--I

Кому ритм важен - таба прилагается в ГП5 (переименовать файл в Парк.gp5)